CANT BUY ME LOVE 2 [ CRD ]

Canít Buy Me Love
Lennon/McCartney
The Beatles
A Hard Dayís Night

Key:
/    = slide up
    = slide down
b    = bend (whole step)
b^   = bend (1/2 step)
pb   = pre-bend
r    = release-bend
h^   = hammer-on
p^   = pull-off
~    = Vibrato
*    = Natural Harmonic
#(#) = Trill
**   = Artificial Harmonic
x    = Muted String (Palm Muting)
X    = Muted String (Fretboard Muting)




                      Em                  Am
Can't buy me love____________ 
Em                               Am
Love___________________
                                Dm7                   G6
Can't buy me love____________________



      C7
I'll buy you a diamond ring my friend if it makes you feel alright
      F7                                                C7
I'll get you anything my friend if it makes you feel alright
          G7                        F7                                                        C7
'Cause I don't care too much for money, money can't buy me love

I'll give you all I got to give if you say you love me too
I may not have a lot to give but what I got I'll give to you
I don't care too much for money, money can't buy me love

                        Em                      Am
Can't buy me love________________ 
      C7  
Ev - erybody tells me so
                        Em                     Am
Can't buy me love______________ 
Dm7               G6
No no no         no

Say you don't need no diamond ring and I'll be satisfied
Tell me that you want those kind of things that money just can't buy
For I don't care too much for money, for money can't buy me love


(Solo)
| -------------------------------------------------------------------------------------------------- |
| --------4---6b--6b--6b--6b--6b--4---------6b--6b--6b--6b--4---------------------------- |
| ----5-------------------------------------5---------------------------5--3---------------------- |
| ------------------------------------------------------------------------------5--3--1------------|
| -------------------------------------------------------------------------------------------------- |
| -------------------------------------------------------------------------------------------------- |

| ---------1--1--1--1----------------------------------------------------------------------- ----- |
| --1--1--1--1--1--1--------6b--6b--6b--6b--4-----------0--0------------------------------- |
| --2--2--2--2--2--2-------------------------------5--------0--0------------------------------- |
| --3--3--3--3--3--3------------------------------------3s--5--5---5s--3--1h--3p--1-------- |
| --------------------------------------------------------------------------------------------3---- |
| -------------------------------------------------------------------------------------------------- |

| -------------------------------------------------------------------------------------------------- |
| -------------------------------------------------------------------------------------------------- |
| -----------3----5p--3s--1---------------------------------------------------------------------- |
| --3s--5----------------------3---3-------------------------------------------------------------- |
| -------------------------------------------------------------------------------------------------- |
| -------------------------------------------------------------------------------------------------- |


                        Em                      Am
Can't buy me love________________ 
      C7  
Ev - erybody tells me so
                        Em                     Am
Can't buy me love______________ 
Dm7               G6
No no no         no



Say you don't need no diamond ring and I'll be satisfied
Tell me that you want those kind of things that money just can't buy
For I don't care too much for money, for money can't buy me love



                      Em                  Am
Can't buy me love____________ 
Em                               Am
Love___________________
                                Dm7                   G6
Can't buy me love____________________
C7
Love______________________________