DAYTRIPPER 3 [ TAB ]

Eó-0-2-3---------------| 
A--------2-----------2-|
D----------2-0-3-2-0---|
G----------------------|
B----------------------|
E----------------------|

Eó-0-2-3---------------|
A--------2-----------2-|
D----------2-0-3-2-0---|
G----------------------|
B----------------------|
E----------------------|
	
E---------------------|
A--0-2-3--------------|
D--------2------------|
G----------2-0-3-2-0--|
B---------------------|
E---------------------|

Eó-0-2-3---------------|
A--------2-----------2-|
D----------2-0-3-2-0---|
G----------------------|
B----------------------|
E----------------------|