DEAR PRUDENCE 3 [ TAB ]

<h5>
<pre>
dear prudence

drop D tuning-D A D G B E

intro

Dadd9             D    C/D  G/D  A/D  C/D 
(fingerstyle)                          2x 
-12------------- -10---8----7----5--- -3-
-----------10--- -10---8----8----5--- -5-
------11-------- -11---9----7----6--- -5-
----0---------0- -------------------- ---
-0-------------- -------------------- ---
---------0------ -------------------- ---

verses
 D           D/C         D/B        D/Bb       
-2-----------2-----------2-----------2-----------
-----3---3-------3---3-------3---3-------3---3---
-------------------------------------------------
---0-------0---0-------0---0-------0---0-------0-
-0-----------3-----------2-----------1-----------
-------0-----------0-----------0-----------0-----
        
(1)Dear Prudence, won't you come out to play
(2)Dear Prudence open up your eyes
(3)Dear Prudence let me see you smile

Dear Prudence, greet the brand new day
Dear Prudence see the sunny skies
Dear Prudence like a little child

The sun is up, the sky is blue
The wind is low the birds will sing
The clouds will be a daisy chain

It's beautiful and so are you
that you are part of everything
So let me see you smile again

              C         G
Dear Prudence won't you come out and play 
Dear Prudence won't you open up your eyes? 
Dear Prudence won't you let me see you smile? 


bridge
 3x
 D             G/D  A/D  G/D
(fingerstyle)
-3----------- -3----5----3---
---------3--- -3----5----3---
-----2------- -4----6----4---
---0--------- ---------------
-0---------0- ---------------
-------0----- ---------------

Look around round
Look around round round
 F           Ab          G
-1-----------4-----------3-----------
---------1-----------4-----------3---
-----2-----------5-----------4-------
---3-------3---6-------6---5-------4-
-3-----3-----6-----6-----5-----5-----
-------------------------------------
Look around 
</pre>
</h5>