DEAR PRUDENCE 6 [ TAB ]

-------------------------------------------------------------------------------
  The Beatles - Help from Help album


-------------------------------------------------------------------------------

  Tabbed by:PJVillanueva




     Intro, Mid and Outro guitar open string riff





    

e|--------:--------:--------:--------|--------:--------:--------:--------|
B|-------------0-----------------0---|-------------0-----------------0---|
G|---------0-----------------0-------|---------0-----------------0-------|
D|----------------------5------------|----4-----------------2------------|
A|7-p-8-------------6----------------|5-----------------4----------------|
E|-----------------------------------|-----------------------------------|

                                  

                                     or

   

e|--------:--------:--------:----0---|--------:--------:--------:--------|
B|-------------0-------------0-------|-------------0-----------------0---|
G|---------0------------5------------|---------0-----------------0-------|
D|----5-------------6----------------|----4-----------------2------------|
A|7----------------------------------|5-----------------4----------------|
E|-----------------------------------|-----------------------------------|




                           Both sound good to me




| /  slide up
|   slide down
| h  hammer-on
| p  pull-off
| ~  vibrato
| +  harmonic
| x  Mute note
===============================================================================