IN MY LIFE 2 [ TAB ]

In My Life

note: this isn't really all my work. much of it is taken from other
tabs of this song that i thought wre sleightly off.
		(very faint)
E------------------5(0-4)-------------------5-------|
B------2-----2-3---------------2---2-3---------------|
G--2-----2-----------------2-------------------------|
D----------------------------------------------------|
A----------------------------------------------------|
E----------------------------------------------------|


            G    D   Em    G7    <--awesome!!
There are places I remember
       C   Cm             G
In my li---ife    though some have changed,
        G     D       Em    G7
Some forever not for better,
           C  Cm       G  
Some have go--one and some remain.

           Em                C
All these places had their moments,
       F                    G
With lovers and friends I still can recall,
          Em                A7
Some are dead and some are living,
   Cm             G       
In my life I've loved them all. 

E------------------5---(0-4)-|
B------2-----2-3-------------|
G--2-----2-------------------|
D----------------------------|
A----------------------------|
E----------------------------|

        G           D          Em   G7
But of all these friends and lovers,
         C  Cm     G
There is no one compares with you,
            G       D            Em   G7
And these mem'ries lose their meaning,
         C       Cm      G      
When I think of love as something new.

          Em                     C
Though I know I'll never lose affection
      F                     G
For people and things that went before,
   Em                             A7
I know I'll often stop and think about them,
   Cm         G
In my life I love you more.

SOLO:

|--------------9-----12p10-----------7-------------9--------9p7--9---10--12--15--|
|-----10-12----10----------------9------10---12------10--------------------------|
|--------------------------------------------------------------------------------|
|-0------------------------------------------------------------------------------|
|--------------------------------------------------------------------------------|
|--------------------------------------------------------------------------------|


|-14-12-14----14----14----13p12--13-------12-10-12-9-12---12----12p10--12-9-----------|
|----------15----14----12------------5-12--------------12----10----------------12/0---|
|-------------------------------------------------------------------------------------|
|-------------------------------------------------------------------------------------|
|-------------------------------------------------------------------------------------|
|-------------------------------------------------------------------------------------|

          Em                     C
Though I know I'll never lose affection
      F                     G
For people and things that went before,
   Em                             A7
I know I'll often stop and think about them,   
Cm         G
In my life I love you more.

E------------------5(0-4)----|
B------2-----2-3--------------|
G--2-----2--------------------|
D-----------------------------|
A-----------------------------|
E-----------------------------|

   Cm
In my life

G
I love you more.

e-|--------5------------------4--------4----2----4---5--|
B-|---2--------2----3----5------------------------------|
G-|-----------------------------------------------------|
D-|-----------------------------------------------------|
A-|-----------------------------------------------------|
E-|-----------------------------------------------------|