YESTERDAY QUASI CLASSICAL VERSION [ TAB ]

Ok, my first time tabbing.  I'm originally a classical guitarist but
have recently starting learning more popular stuff.  This is a simpler
version of the piece of sheet music I tabbed it from but anyone who
wants the full version can e-mail me. 

It's pretty straight forward once you get the hang of the basic chord positions, 
mainly C and G.  

The first 2 bars are best played as a bar chord on fret 3, then back
to fret 2.  Enjoy.

Hold bar   Hold bar
@3rd        @2nd 

|-5--3-3---|-----------2-3-|-2--0-0---|---0---------|
|----------|-----2-4-5-----|----------|-1---3-1-0---|
|----------|---4-----------|----------|-----------2-|
|----------|---------------|----------|-----0-------|
|----------|-------2-------|----------|-------------|
|-3--------|-2-------------|-0--------|-----2-------|


|----------|-------------|----------||
|-1--0-0---|----0--------|----0-0---|| 
|-0------2-|-0-----2-----|-0----0---||
|-2--------|-0-----2--2--|-2----0---||
|----------|-------0-----|-3--------||
|-3------2-|-0-----------|------3---||  repeat


|---------|-0â-2-â3-2-0-|-2â0-----0--|-----||
|---------|-0â-0â-0-----|-1----3-----|--0--||
|-2---2---|-0â-2â-0-----|-2----2-----|-----||
|-2---1---|-2â-1â-2-----|------0-----|--0--||  
|-----2---|-------------|-0----------|-----||  
|-2-------|-------------|------2-----|--3--||  

repeat except for last 2 bars, instead play:

|-2â-0-----2--|-3-----------||----------
|-1-----3-----|----3â-1â-0--||----------
|-2-----2-----|-------------||-2â-0-0---
|-------0-----|-------------||----------
|-0-----------|-------------||----------
|-------------|-3-----3-----||-3--------

then back to start.

Any queries, questions or comments to Sarah: 
scorn_queen2000@yahoo.com